  0
SECTION
  2
HEADER
  9
$ACADVER
  1
AC1015
  9
$ACADMAINTVER
 70
     6
  9
$DWGCODEPAGE
  3
ANSI_1254
  9
$INSBASE
 10
0.0
 20
0.0
 30
0.0
  9
$EXTMIN
 10
0.0
 20
0.0
 30
0.0
  9
$EXTMAX
 10
279.4
 20
215.9
 30
0.0
  9
$LIMMIN
 10
0.0
 20
0.0
  9
$LIMMAX
 10
279.4
 20
215.9
  9
$ORTHOMODE
 70
     0
  9
$REGENMODE
 70
     1
  9
$FILLMODE
 70
     1
  9
$QTEXTMODE
 70
     0
  9
$MIRRTEXT
 70
     1
  9
$LTSCALE
 40
1.0
  9
$ATTMODE
 70
     1
  9
$TEXTSIZE
 40
3.5
  9
$TRACEWID
 40
1.0
  9
$TEXTSTYLE
  7
Standard
  9
$CLAYER
  8
0
  9
$CELTYPE
  6
ByLayer
  9
$CECOLOR
 62
   256
  9
$CELTSCALE
 40
1.0
  9
$DISPSILH
 70
     0
  9
$DIMSCALE
 40
1.0
  9
$DIMASZ
 40
3.5
  9
$DIMEXO
 40
1.0
  9
$DIMDLI
 40
3.75
  9
$DIMRND
 40
0.0
  9
$DIMDLE
 40
0.0
  9
$DIMEXE
 40
1.0
  9
$DIMTP
 40
0.0
  9
$DIMTM
 40
0.0
  9
$DIMTXT
 40
3.5
  9
$DIMCEN
 40
2.5
  9
$DIMTSZ
 40
0.0
  9
$DIMTOL
 70
     0
  9
$DIMLIM
 70
     0
  9
$DIMTIH
 70
     1
  9
$DIMTOH
 70
     1
  9
$DIMSE1
 70
     0
  9
$DIMSE2
 70
     0
  9
$DIMTAD
 70
     1
  9
$DIMZIN
 70
     0
  9
$DIMBLK
  1

  9
$DIMASO
 70
     1
  9
$DIMSHO
 70
     1
  9
$DIMPOST
  1

  9
$DIMAPOST
  1

  9
$DIMALT
 70
     0
  9
$DIMALTD
 70
     3
  9
$DIMALTF
 40
0.0393700787
  9
$DIMLFAC
 40
1.0
  9
$DIMTOFL
 70
     1
  9
$DIMTVP
 40
0.0
  9
$DIMTIX
 70
     0
  9
$DIMSOXD
 70
     0
  9
$DIMSAH
 70
     0
  9
$DIMBLK1
  1

  9
$DIMBLK2
  1

  9
$DIMSTYLE
  2
ISO-25
  9
$DIMCLRD
 70
     0
  9
$DIMCLRE
 70
     0
  9
$DIMCLRT
 70
     0
  9
$DIMTFAC
 40
1.0
  9
$DIMGAP
 40
1.524
  9
$DIMJUST
 70
     0
  9
$DIMSD1
 70
     0
  9
$DIMSD2
 70
     0
  9
$DIMTOLJ
 70
     0
  9
$DIMTZIN
 70
     0
  9
$DIMALTZ
 70
     0
  9
$DIMALTTZ
 70
     0
  9
$DIMUPT
 70
     0
  9
$DIMDEC
 70
     2
  9
$DIMTDEC
 70
     2
  9
$DIMALTU
 70
     2
  9
$DIMALTTD
 70
     3
  9
$DIMTXSTY
  7
Standard
  9
$DIMAUNIT
 70
     0
  9
$DIMADEC
 70
     2
  9
$DIMALTRND
 40
0.0
  9
$DIMAZIN
 70
     0
  9
$DIMDSEP
 70
    44
  9
$DIMATFIT
 70
     3
  9
$DIMFRAC
 70
     0
  9
$DIMLDRBLK
  1

  9
$DIMLUNIT
 70
     2
  9
$DIMLWD
 70
    -2
  9
$DIMLWE
 70
    -2
  9
$DIMTMOVE
 70
     0
  9
$LUNITS
 70
     2
  9
$LUPREC
 70
     2
  9
$SKETCHINC
 40
1.0
  9
$FILLETRAD
 40
10.0
  9
$AUNITS
 70
     0
  9
$AUPREC
 70
     2
  9
$MENU
  1
.
  9
$ELEVATION
 40
0.0
  9
$PELEVATION
 40
0.0
  9
$THICKNESS
 40
0.0
  9
$LIMCHECK
 70
     0
  9
$CHAMFERA
 40
0.0
  9
$CHAMFERB
 40
0.0
  9
$CHAMFERC
 40
0.0
  9
$CHAMFERD
 40
0.0
  9
$SKPOLY
 70
     0
  9
$TDCREATE
 40
2458985.683136169
  9
$TDUCREATE
 40
2458985.558136169
  9
$TDUPDATE
 40
2458985.683136459
  9
$TDUUPDATE
 40
2458985.558136459
  9
$TDINDWG
 40
0.0000000116
  9
$TDUSRTIMER
 40
0.0000000116
  9
$USRTIMER
 70
     1
  9
$ANGBASE
 50
0.0
  9
$ANGDIR
 70
     0
  9
$PDMODE
 70
     0
  9
$PDSIZE
 40
-1.0
  9
$PLINEWID
 40
0.0
  9
$SPLFRAME
 70
     0
  9
$SPLINETYPE
 70
     6
  9
$SPLINESEGS
 70
     8
  9
$HANDSEED
  5
CB
  9
$SURFTAB1
 70
     6
  9
$SURFTAB2
 70
     6
  9
$SURFTYPE
 70
     6
  9
$SURFU
 70
     6
  9
$SURFV
 70
     6
  9
$UCSBASE
  2

  9
$UCSNAME
  2

  9
$UCSORG
 10
0.0
 20
0.0
 30
0.0
  9
$UCSXDIR
 10
1.0
 20
0.0
 30
0.0
  9
$UCSYDIR
 10
0.0
 20
1.0
 30
0.0
  9
$UCSORTHOREF
  2

  9
$UCSORTHOVIEW
 70
     0
  9
$UCSORGTOP
 10
0.0
 20
0.0
 30
0.0
  9
$UCSORGBOTTOM
 10
0.0
 20
0.0
 30
0.0
  9
$UCSORGLEFT
 10
0.0
 20
0.0
 30
0.0
  9
$UCSORGRIGHT
 10
0.0
 20
0.0
 30
0.0
  9
$UCSORGFRONT
 10
0.0
 20
0.0
 30
0.0
  9
$UCSORGBACK
 10
0.0
 20
0.0
 30
0.0
  9
$PUCSBASE
  2

  9
$PUCSNAME
  2

  9
$PUCSORG
 10
0.0
 20
0.0
 30
0.0
  9
$PUCSXDIR
 10
1.0
 20
0.0
 30
0.0
  9
$PUCSYDIR
 10
0.0
 20
1.0
 30
0.0
  9
$PUCSORTHOREF
  2

  9
$PUCSORTHOVIEW
 70
     0
  9
$PUCSORGTOP
 10
0.0
 20
0.0
 30
0.0
  9
$PUCSORGBOTTOM
 10
0.0
 20
0.0
 30
0.0
  9
$PUCSORGLEFT
 10
0.0
 20
0.0
 30
0.0
  9
$PUCSORGRIGHT
 10
0.0
 20
0.0
 30
0.0
  9
$PUCSORGFRONT
 10
0.0
 20
0.0
 30
0.0
  9
$PUCSORGBACK
 10
0.0
 20
0.0
 30
0.0
  9
$USERI1
 70
     0
  9
$USERI2
 70
     0
  9
$USERI3
 70
     0
  9
$USERI4
 70
     0
  9
$USERI5
 70
     0
  9
$USERR1
 40
0.0
  9
$USERR2
 40
0.0
  9
$USERR3
 40
0.0
  9
$USERR4
 40
0.0
  9
$USERR5
 40
0.0
  9
$WORLDVIEW
 70
     1
  9
$SHADEDGE
 70
     3
  9
$SHADEDIF
 70
    70
  9
$TILEMODE
 70
     1
  9
$MAXACTVP
 70
    64
  9
$PINSBASE
 10
0.0
 20
0.0
 30
0.0
  9
$PLIMCHECK
 70
     0
  9
$PEXTMIN
 10
1.0000000000E+20
 20
1.0000000000E+20
 30
1.0000000000E+20
  9
$PEXTMAX
 10
-1.0000000000E+20
 20
-1.0000000000E+20
 30
-1.0000000000E+20
  9
$PLIMMIN
 10
0.0
 20
0.0
  9
$PLIMMAX
 10
420.0
 20
297.0
  9
$UNITMODE
 70
     0
  9
$VISRETAIN
 70
     1
  9
$PLINEGEN
 70
     0
  9
$PSLTSCALE
 70
     1
  9
$TREEDEPTH
 70
  3020
  9
$CMLSTYLE
  2
Standard
  9
$CMLJUST
 70
     0
  9
$CMLSCALE
 40
20.0
  9
$PROXYGRAPHICS
 70
     1
  9
$MEASUREMENT
 70
     1
  9
$CELWEIGHT
370
    -1
  9
$ENDCAPS
280
     0
  9
$JOINSTYLE
280
     0
  9
$LWDISPLAY
290
     1
  9
$INSUNITS
 70
     4
  9
$HYPERLINKBASE
  1

  9
$STYLESHEET
  1

  9
$XEDIT
290
     1
  9
$CEPSNTYPE
380
     0
  9
$PSTYLEMODE
290
     1
  9
$FINGERPRINTGUID
  2
{af2f1091-5d96-4374-8c7e-c2b725570972}
  9
$VERSIONGUID
  2
{FAEB1C32-E019-11D5-929B-00C0DF256EC4}
  9
$EXTNAMES
290
     1
  9
$PSVPSCALE
 40
0.0
  9
$OLESTARTUP
290
     0
  0
ENDSEC
  0
SECTION
  2
CLASSES
  0
CLASS
  1
ACDBDICTIONARYWDFLT
  2
AcDbDictionaryWithDefault
  3
ObjectDBX Classes
 90
        0
280
     0
281
     0
  0
CLASS
  1
VISUALSTYLE
  2
AcDbVisualStyle
  3
ObjectDBX Classes
 90
     4095
280
     0
281
     0
  0
CLASS
  1
MATERIAL
  2
AcDbMaterial
  3
ObjectDBX Classes
 90
     1153
280
     0
281
     0
  0
CLASS
  1
SCALE
  2
AcDbScale
  3
ObjectDBX Classes
 90
     1153
280
     0
281
     0
  0
CLASS
  1
TABLESTYLE
  2
AcDbTableStyle
  3
ObjectDBX Classes
 90
     4095
280
     0
281
     0
  0
CLASS
  1
MLEADERSTYLE
  2
AcDbMLeaderStyle
  3
ACDB_MLEADERSTYLE_CLASS
 90
     4095
280
     0
281
     0
  0
CLASS
  1
SUN
  2
AcDbSun
  3
SCENEOE
 90
     1153
280
     0
281
     0
  0
CLASS
  1
ACDBPLACEHOLDER
  2
AcDbPlaceHolder
  3
ObjectDBX Classes
 90
        0
280
     0
281
     0
  0
CLASS
  1
LAYOUT
  2
AcDbLayout
  3
ObjectDBX Classes
 90
        0
280
     0
281
     0
  0
ENDSEC
  0
SECTION
  2
TABLES
  0
TABLE
  2
VPORT
  5
8
330
0
100
AcDbSymbolTable
 70
     1
  0
VPORT
  5
29
330
8
100
AcDbSymbolTableRecord
100
AcDbViewportTableRecord
  2
*Active
 70
     0
 10
0.0
 20
0.0
 11
1.0
 21
1.0
 12
139.7
 22
107.95
 13
0.0
 23
0.0
 14
10.0
 24
10.0
 15
10.0
 25
10.0
 16
0.0
 26
0.0
 36
1.0
 17
0.0
 27
0.0
 37
0.0
 40
215.9
 41
1.2941176471
 42
50.0
 43
0.0
 44
0.0
 50
0.0
 51
0.0
 71
     0
 72
  2000
 73
     1
 74
     3
 75
     0
 76
     0
 77
     0
 78
     0
281
     0
 65
     1
110
0.0
120
0.0
130
0.0
111
1.0
121
0.0
131
0.0
112
0.0
122
1.0
132
0.0
 79
     0
146
0.0
  0
ENDTAB
  0
TABLE
  2
LTYPE
  5
5
330
0
100
AcDbSymbolTable
 70
     6
  0
LTYPE
  5
14
330
5
100
AcDbSymbolTableRecord
100
AcDbLinetypeTableRecord
  2
ByBlock
 70
     0
  3

 72
    65
 73
     0
 40
0.0
  0
LTYPE
  5
15
330
5
100
AcDbSymbolTableRecord
100
AcDbLinetypeTableRecord
  2
ByLayer
 70
     0
  3

 72
    65
 73
     0
 40
0.0
  0
LTYPE
  5
16
330
5
100
AcDbSymbolTableRecord
100
AcDbLinetypeTableRecord
  2
Continuous
 70
     0
  3
Solid line
 72
    65
 73
     0
 40
0.0
  0
LTYPE
  5
6E
330
5
100
AcDbSymbolTableRecord
100
AcDbLinetypeTableRecord
  2
HIDDEN
 70
     0
  3
Hidden __ __ __ __ __ __ __ __ __ __ __ __ __ __
 72
    65
 73
     2
 40
1.905
 49
1.27
 74
     0
 49
-0.635
 74
     0
  0
LTYPE
  5
6F
330
5
100
AcDbSymbolTableRecord
100
AcDbLinetypeTableRecord
  2
PHANTOM
 70
     0
  3
Phantom ______  __  __  ______  __  __  ______
 72
    65
 73
     6
 40
12.7
 49
6.35
 74
     0
 49
-1.27
 74
     0
 49
1.27
 74
     0
 49
-1.27
 74
     0
 49
1.27
 74
     0
 49
-1.27
 74
     0
  0
LTYPE
  5
70
330
5
100
AcDbSymbolTableRecord
100
AcDbLinetypeTableRecord
  2
CENTER
 70
     0
  3
Center ____ _ ____ _ ____ _ ____ _ ____ _ ____
 72
    65
 73
     4
 40
10.16
 49
6.35
 74
     0
 49
-1.27
 74
     0
 49
1.27
 74
     0
 49
-1.27
 74
     0
  0
LTYPE
  5
71
330
5
100
AcDbSymbolTableRecord
100
AcDbLinetypeTableRecord
  2
CENTERX2
 70
     0
  3
Center (2x) ________  __  ________  __  _____
 72
    65
 73
     4
 40
20.32
 49
12.7
 74
     0
 49
-2.54
 74
     0
 49
2.54
 74
     0
 49
-2.54
 74
     0
  0
LTYPE
  5
72
330
5
100
AcDbSymbolTableRecord
100
AcDbLinetypeTableRecord
  2
DOT2
 70
     0
  3
Dot (.5x) ........................................
 72
    65
 73
     2
 40
0.635
 49
0.0
 74
     0
 49
-0.635
 74
     0
  0
ENDTAB
  0
TABLE
  2
LAYER
  5
2
330
0
100
AcDbSymbolTable
 70
    17
  0
LAYER
  5
10
330
2
100
AcDbSymbolTableRecord
100
AcDbLayerTableRecord
  2
0
 70
     0
 62
     7
  6
Continuous
370
    -3
390
F
  0
LAYER
  5
73
330
2
100
AcDbSymbolTableRecord
100
AcDbLayerTableRecord
  2
FORMAT
 70
     0
 62
     7
  6
Continuous
370
    -3
390
F
  0
LAYER
  5
74
330
2
100
AcDbSymbolTableRecord
100
AcDbLayerTableRecord
  2
YARDIMCI_GEOMETRI
 70
     0
 62
    -6
  6
Continuous
290
     0
370
    -3
390
F
  0
LAYER
  5
75
330
2
100
AcDbSymbolTableRecord
100
AcDbLayerTableRecord
  2
SAYFA_CERCEVESI
 70
     0
 62
     7
  6
Continuous
370
    25
390
F
  0
LAYER
  5
76
330
2
100
AcDbSymbolTableRecord
100
AcDbLayerTableRecord
  2
ANTET
 70
     0
 62
     7
  6
Continuous
370
    -3
390
F
  0
LAYER
  5
77
330
2
100
AcDbSymbolTableRecord
100
AcDbLayerTableRecord
  2
OLCU
 70
     0
 62
   150
  6
Continuous
370
    -3
390
F
  0
LAYER
  5
78
330
2
100
AcDbSymbolTableRecord
100
AcDbLayerTableRecord
  2
METIN
 70
     0
 62
    96
  6
Continuous
370
    -3
390
F
  0
LAYER
  5
79
330
2
100
AcDbSymbolTableRecord
100
AcDbLayerTableRecord
  2
BALON
 70
     0
 62
     5
  6
Continuous
370
    -3
390
F
  0
LAYER
  5
7A
330
2
100
AcDbSymbolTableRecord
100
AcDbLayerTableRecord
  2
VURGU
 70
     0
 62
     7
  6
Continuous
370
    -3
390
F
  0
LAYER
  5
7B
330
2
100
AcDbSymbolTableRecord
100
AcDbLayerTableRecord
  2
SILIK
 70
     0
 62
     7
  6
Continuous
370
    -3
390
F
  0
LAYER
  5
7C
330
2
100
AcDbSymbolTableRecord
100
AcDbLayerTableRecord
  2
MODEL
 70
     0
 62
     7
  6
Continuous
370
    -3
390
F
  0
LAYER
  5
7D
330
2
100
AcDbSymbolTableRecord
100
AcDbLayerTableRecord
  2
DETAYLANDıRMA
 70
     0
 62
   190
  6
Continuous
370
    -3
390
F
  0
LAYER
  5
7E
330
2
100
AcDbSymbolTableRecord
100
AcDbLayerTableRecord
  2
TOLERANS
 70
     0
 62
   230
  6
Continuous
370
    -3
390
F
  0
LAYER
  5
7F
330
2
100
AcDbSymbolTableRecord
100
AcDbLayerTableRecord
  2
MERKEZ_CIZGILERI
 70
     0
 62
    30
  6
Continuous
370
    -3
390
F
  0
LAYER
  5
80
330
2
100
AcDbSymbolTableRecord
100
AcDbLayerTableRecord
  2
KESIT-DETAY_CIZGILERI
 70
     0
 62
     7
  6
Continuous
370
    -3
390
F
  0
LAYER
  5
81
330
2
100
AcDbSymbolTableRecord
100
AcDbLayerTableRecord
  2
\U+041E\U+0421\U+0415\U+0412\U+042B\U+0415
 70
     0
 62
     7
  6
Continuous
370
    -3
390
F
  0
LAYER
  5
82
330
2
100
AcDbSymbolTableRecord
100
AcDbLayerTableRecord
  2
\U+0412\U+041E\U+0414\U+042F\U+041D\U+042B\U+0415_\U+0417\U+041D\U+0410\U+041A\U+0418
 70
     0
 62
    11
  6
Continuous
370
    -3
390
F
  0
ENDTAB
  0
TABLE
  2
STYLE
  5
3
330
0
100
AcDbSymbolTable
 70
     1
  0
STYLE
  5
11
330
3
100
AcDbSymbolTableRecord
100
AcDbTextStyleTableRecord
  2
Standard
 70
     0
 40
0.0
 41
1.0
 50
0.0
 71
     0
 42
3.5
  3
txt
  4

  0
ENDTAB
  0
TABLE
  2
VIEW
  5
6
330
0
100
AcDbSymbolTable
 70
     0
  0
ENDTAB
  0
TABLE
  2
UCS
  5
7
330
0
100
AcDbSymbolTable
 70
     0
  0
ENDTAB
  0
TABLE
  2
APPID
  5
9
330
0
100
AcDbSymbolTable
 70
     1
  0
APPID
  5
12
330
9
100
AcDbSymbolTableRecord
100
AcDbRegAppTableRecord
  2
ACAD
 70
     0
  0
ENDTAB
  0
TABLE
  2
DIMSTYLE
  5
A
330
0
100
AcDbSymbolTable
 70
     1
100
AcDbDimStyleTable
  0
DIMSTYLE
105
27
330
A
100
AcDbSymbolTableRecord
100
AcDbDimStyleTableRecord
  2
ISO-25
 70
     0
 41
2.5
 42
0.625
 43
3.75
 44
1.25
 73
     0
 74
     0
 77
     1
 78
     8
140
2.5
141
2.5
143
0.0393700787
147
0.625
171
     3
172
     1
178
     0
271
     2
272
     2
274
     3
278
    44
283
     0
284
     8
340
11
  0
ENDTAB
  0
TABLE
  2
BLOCK_RECORD
  5
1
330
0
100
AcDbSymbolTable
 70
     3
  0
BLOCK_RECORD
  5
1F
330
1
100
AcDbSymbolTableRecord
100
AcDbBlockTableRecord
  2
*Model_Space
340
22
  0
BLOCK_RECORD
  5
1B
330
1
100
AcDbSymbolTableRecord
100
AcDbBlockTableRecord
  2
*Paper_Space
340
1E
  0
BLOCK_RECORD
  5
23
330
1
100
AcDbSymbolTableRecord
100
AcDbBlockTableRecord
  2
*Paper_Space0
340
26
  0
BLOCK_RECORD
  5
88
330
1
100
AcDbSymbolTableRecord
100
AcDbBlockTableRecord
  2
SW_CENTERMARKSYMBOL_0
340
0
102
{BLKREFS
331
93
102
}
  0
BLOCK_RECORD
  5
B2
330
1
100
AcDbSymbolTableRecord
100
AcDbBlockTableRecord
  2
SW_CENTERMARKSYMBOL_1
340
0
102
{BLKREFS
331
BD
102
}
  0
ENDTAB
  0
ENDSEC
  0
SECTION
  2
BLOCKS
  0
BLOCK
  5
20
330
1F
100
AcDbEntity
  8
0
100
AcDbBlockBegin
  2
*Model_Space
 70
     0
 10
0.0
 20
0.0
 30
0.0
  3
*Model_Space
  1

  0
ENDBLK
  5
21
330
1F
100
AcDbEntity
  8
0
100
AcDbBlockEnd
  0
BLOCK
  5
1C
330
1B
100
AcDbEntity
 67
     1
  8
0
100
AcDbBlockBegin
  2
*Paper_Space
 70
     0
 10
0.0
 20
0.0
 30
0.0
  3
*Paper_Space
  1

  0
ENDBLK
  5
1D
330
1B
100
AcDbEntity
 67
     1
  8
0
100
AcDbBlockEnd
  0
BLOCK
  5
24
330
23
100
AcDbEntity
  8
0
100
AcDbBlockBegin
  2
*Paper_Space0
 70
     0
 10
0.0
 20
0.0
 30
0.0
  3
*Paper_Space0
  1

  0
ENDBLK
  5
25
330
23
100
AcDbEntity
  8
0
100
AcDbBlockEnd
  0
BLOCK
  5
89
330
88
100
AcDbEntity
  8
0
100
AcDbBlockBegin
  2
SW_CENTERMARKSYMBOL_0
 70
     0
 10
0.0
 20
0.0
 30
0.0
  3
SW_CENTERMARKSYMBOL_0
  1

  0
LINE
  5
8B
330
88
100
AcDbEntity
  8
FORMAT
 62
     0
100
AcDbLine
 10
0.0
 20
0.0
 30
0.0
 11
0.0
 21
2.5
 31
0.0
  0
LINE
  5
8C
330
88
100
AcDbEntity
  8
FORMAT
 62
     0
100
AcDbLine
 10
0.0
 20
0.0
 30
0.0
 11
-2.5
 21
0.0
 31
0.0
  0
LINE
  5
8D
330
88
100
AcDbEntity
  8
FORMAT
 62
     0
100
AcDbLine
 10
0.0
 20
0.0
 30
0.0
 11
0.0
 21
-2.5
 31
0.0
  0
LINE
  5
8E
330
88
100
AcDbEntity
  8
FORMAT
 62
     0
100
AcDbLine
 10
0.0
 20
0.0
 30
0.0
 11
2.5
 21
0.0
 31
0.0
  0
LINE
  5
8F
330
88
100
AcDbEntity
  8
FORMAT
 62
     0
100
AcDbLine
 10
0.0
 20
5.0
 30
0.0
 11
0.0
 21
115.0
 31
0.0
  0
LINE
  5
90
330
88
100
AcDbEntity
  8
FORMAT
 62
     0
100
AcDbLine
 10
-5.0
 20
0.0
 30
0.0
 11
-115.0
 21
0.0
 31
0.0
  0
LINE
  5
91
330
88
100
AcDbEntity
  8
FORMAT
 62
     0
100
AcDbLine
 10
0.0
 20
-5.0
 30
0.0
 11
0.0
 21
-115.0
 31
0.0
  0
LINE
  5
92
330
88
100
AcDbEntity
  8
FORMAT
 62
     0
100
AcDbLine
 10
5.0
 20
0.0
 30
0.0
 11
115.0
 21
0.0
 31
0.0
  0
ENDBLK
  5
8A
330
88
100
AcDbEntity
  8
0
100
AcDbBlockEnd
  0
BLOCK
  5
B3
330
B2
100
AcDbEntity
  8
0
100
AcDbBlockBegin
  2
SW_CENTERMARKSYMBOL_1
 70
     0
 10
0.0
 20
0.0
 30
0.0
  3
SW_CENTERMARKSYMBOL_1
  1

  0
LINE
  5
B5
330
B2
100
AcDbEntity
  8
FORMAT
 62
     0
100
AcDbLine
 10
0.0
 20
0.0
 30
0.0
 11
0.0
 21
2.5
 31
0.0
  0
LINE
  5
B6
330
B2
100
AcDbEntity
  8
FORMAT
 62
     0
100
AcDbLine
 10
0.0
 20
0.0
 30
0.0
 11
-2.5
 21
0.0
 31
0.0
  0
LINE
  5
B7
330
B2
100
AcDbEntity
  8
FORMAT
 62
     0
100
AcDbLine
 10
0.0
 20
0.0
 30
0.0
 11
0.0
 21
-2.5
 31
0.0
  0
LINE
  5
B8
330
B2
100
AcDbEntity
  8
FORMAT
 62
     0
100
AcDbLine
 10
0.0
 20
0.0
 30
0.0
 11
2.5
 21
0.0
 31
0.0
  0
LINE
  5
B9
330
B2
100
AcDbEntity
  8
FORMAT
 62
     0
100
AcDbLine
 10
0.0
 20
5.0
 30
0.0
 11
0.0
 21
57.5
 31
0.0
  0
LINE
  5
BA
330
B2
100
AcDbEntity
  8
FORMAT
 62
     0
100
AcDbLine
 10
-5.0
 20
0.0
 30
0.0
 11
-57.5
 21
0.0
 31
0.0
  0
LINE
  5
BB
330
B2
100
AcDbEntity
  8
FORMAT
 62
     0
100
AcDbLine
 10
0.0
 20
-5.0
 30
0.0
 11
0.0
 21
-57.5
 31
0.0
  0
LINE
  5
BC
330
B2
100
AcDbEntity
  8
FORMAT
 62
     0
100
AcDbLine
 10
5.0
 20
0.0
 30
0.0
 11
57.5
 21
0.0
 31
0.0
  0
ENDBLK
  5
B4
330
B2
100
AcDbEntity
  8
0
100
AcDbBlockEnd
  0
ENDSEC
  0
SECTION
  2
ENTITIES
  0
LINE
  5
83
330
1F
100
AcDbEntity
  8
0
  6
Continuous
 62
     7
370
    25
100
AcDbLine
 10
176.2442217496
 20
51.7442284402
 30
0.0
 11
304.0544443621
 21
51.7442284402
 31
0.0
  0
LINE
  5
84
330
1F
100
AcDbEntity
  8
0
  6
Continuous
 62
     7
370
    25
100
AcDbLine
 10
304.0544443621
 20
161.7442284402
 30
0.0
 11
176.2439135485
 21
161.7442284402
 31
0.0
  0
CIRCLE
  5
85
330
1F
100
AcDbEntity
  8
0
  6
Continuous
 62
     7
370
    25
100
AcDbCircle
 10
78.0544443621
 20
106.7442284402
 30
0.0
 40
92.0
  0
CIRCLE
  5
86
330
1F
100
AcDbEntity
  8
0
  6
Continuous
 62
     7
370
    25
100
AcDbCircle
 10
78.0544443621
 20
106.7442284402
 30
0.0
 40
112.5
  0
LINE
  5
87
330
1F
100
AcDbEntity
  8
0
  6
Continuous
 62
     7
370
    25
100
AcDbLine
 10
304.0544443621
 20
161.7442284402
 30
0.0
 11
304.0544443621
 21
51.7442284402
 31
0.0
  0
INSERT
  5
93
330
1F
100
AcDbEntity
  8
FORMAT
100
AcDbBlockReference
  2
SW_CENTERMARKSYMBOL_0
 10
78.0544443621
 20
106.7442284402
 30
0.0
  0
LINE
  5
94
330
1F
100
AcDbEntity
  8
0
  6
Continuous
 62
     7
370
    25
100
AcDbLine
 10
-34.4455556379
 20
-87.9826202296
 30
0.0
 11
-34.4455556379
 21
-614.9826202296
 31
0.0
  0
LINE
  5
95
330
1F
100
AcDbEntity
  8
0
  6
Continuous
 62
     7
370
    25
100
AcDbLine
 10
190.5544443621
 20
-296.5210827231
 30
0.0
 11
190.5544443621
 21
-87.9826202296
 31
0.0
  0
LINE
  5
96
330
1F
100
AcDbEntity
  8
0
  6
Continuous
 62
     7
370
    25
100
AcDbLine
 10
190.5544443621
 20
-614.9826202296
 30
0.0
 11
190.5544443621
 21
-406.4826202296
 31
0.0
  0
LINE
  5
97
330
1F
100
AcDbEntity
  8
0
  6
Continuous
 62
     7
370
    25
100
AcDbLine
 10
190.5544443621
 20
-406.4826202296
 30
0.0
 11
304.0544443621
 21
-406.4826202296
 31
0.0
  0
LINE
  5
98
330
1F
100
AcDbEntity
  8
0
  6
Continuous
 62
     7
370
    25
100
AcDbLine
 10
304.0544443621
 20
-296.4826202296
 30
0.0
 11
190.5355650565
 21
-296.4826202296
 31
0.0
  0
SPLINE
  5
99
330
1F
100
AcDbEntity
  8
0
  6
Continuous
 62
     7
370
    25
100
AcDbSpline
210
0.0
220
0.0
230
1.0
 70
     8
 71
     3
 72
    39
 73
    35
 74
     0
 42
0.000000001
 43
0.00000001
 40
0.0
 40
0.0
 40
0.0
 40
0.0
 40
0.0071214122940244
 40
0.0333254667523599
 40
0.0803870299453556
 40
0.1045851648283342
 40
0.1287845243282728
 40
0.1773223509996669
 40
0.2270405580630199
 40
0.2536157970703585
 40
0.2801911855874192
 40
0.3074752086163227
 40
0.3347580613721828
 40
0.3623530112967691
 40
0.3899454586754031
 40
0.4185126286564527
 40
0.4470765993548227
 40
0.4720470718404787
 40
0.4970166670152925
 40
0.5228611029771769
 40
0.5487063712968524
 40
0.5944432481110167
 40
0.6413557188176962
 40
0.6902424061686848
 40
0.7402738188123927
 40
0.7674750026489955
 40
0.7946755522438717
 40
0.8226611326809482
 40
0.8506449173615972
 40
0.8777981115569715
 40
0.9049493259284062
 40
0.9330624879727871
 40
0.9611738881252476
 40
1.0
 40
1.0
 40
1.0
 40
1.0
 10
190.5355599133954
 20
-296.5210827230882
 30
0.0
 10
190.5409889717848
 20
-296.5099412929276
 30
0.0
 10
190.5663948740671
 20
-296.4578036908536
 30
0.0
 10
190.3784471937934
 20
-296.842948837353
 30
0.0
 10
189.8963736071271
 20
-297.8352586534973
 30
0.0
 10
189.1307257027887
 20
-299.4517701659487
 30
0.0
 10
188.1903493677222
 20
-301.4800634594417
 30
0.0
 10
186.7186698332765
 20
-304.7698664014844
 30
0.0
 10
184.9623533333429
 20
-309.0154088236194
 30
0.0
 10
183.4474206499883
 20
-313.019046320767
 30
0.0
 10
182.254759883309
 20
-316.4092895091073
 30
0.0
 10
181.0742142859748
 20
-320.078716007919
 30
0.0
 10
179.935435325041
 20
-324.0302066277179
 30
0.0
 10
178.8850042362887
 20
-328.2166183788106
 30
0.0
 10
177.9468855555256
 20
-332.6670847124993
 30
0.0
 10
177.1690426061106
 20
-337.3468836431282
 30
0.0
 10
176.6122927826951
 20
-342.0185907193974
 30
0.0
 10
176.2848135670073
 20
-346.5699155816937
 30
0.0
 10
176.160145665223
 20
-351.0045630273855
 30
0.0
 10
176.241554765441
 20
-355.4954755079814
 30
0.0
 10
176.601993882441
 20
-361.1569621590567
 30
0.0
 10
177.4588561932678
 20
-367.8924078796506
 30
0.0
 10
179.0025619459467
 20
-375.4972068619021
 30
0.0
 10
180.9719280017476
 20
-382.7152556943015
 30
0.0
 10
182.8415687035068
 20
-388.3032798315908
 30
0.0
 10
184.3848232918813
 20
-392.4414024329097
 30
0.0
 10
185.5700215429039
 20
-395.4209995801578
 30
0.0
 10
186.700676721486
 20
-398.1146219856837
 30
0.0
 10
187.7349074615695
 20
-400.4701728619757
 30
0.0
 10
188.6342394658968
 20
-402.448382027569
 30
0.0
 10
189.3916619673491
 20
-404.0680139304362
 30
0.0
 10
189.978519240953
 20
-405.297953166434
 30
0.0
 10
190.4480144878492
 20
-406.2654410286674
 30
0.0
 10
190.5153736679515
 20
-406.4028931585743
 30
0.0
 10
190.5544443621442
 20
-406.4826202295627
 30
0.0
  0
LINE
  5
9A
330
1F
100
AcDbEntity
  8
0
  6
Continuous
 62
     7
370
    25
100
AcDbLine
 10
190.5544443621
 20
-614.9826202296
 30
0.0
 11
-34.4455556379
 21
-614.9826202296
 31
0.0
  0
LINE
  5
9B
330
1F
100
AcDbEntity
  8
0
  6
Continuous
 62
     7
370
    25
100
AcDbLine
 10
190.5544443621
 20
-87.9826202296
 30
0.0
 11
-34.4455556379
 21
-87.9826202296
 31
0.0
  0
LINE
  5
9C
330
1F
100
AcDbEntity
  8
0
  6
Continuous
 62
     7
370
    25
100
AcDbLine
 10
304.0544443621
 20
-296.4826202296
 30
0.0
 11
304.0544443621
 21
-406.4826202296
 31
0.0
  0
LINE
  5
9D
330
1F
100
AcDbEntity
  8
0
  6
Continuous
 62
     7
370
    25
100
AcDbLine
 10
190.5544443621
 20
607.6601020467
 30
0.0
 11
190.5544443621
 21
816.1601020467
 31
0.0
  0
LINE
  5
9E
330
1F
100
AcDbEntity
  8
0
  6
Continuous
 62
     7
370
    25
100
AcDbLine
 10
190.5544443621
 20
289.1601020467
 30
0.0
 11
190.5544443621
 21
497.697596261
 31
0.0
  0
LINE
  5
9F
330
1F
100
AcDbEntity
  8
0
  6
Continuous
 62
     7
370
    25
100
AcDbLine
 10
-34.4455556379
 20
816.1601020467
 30
0.0
 11
-34.4455556379
 21
289.1601020467
 31
0.0
  0
LINE
  5
A0
330
1F
100
AcDbEntity
  8
0
  6
Continuous
 62
     7
370
    25
100
AcDbLine
 10
190.5361289875
 20
497.6601020467
 30
0.0
 11
304.0544443621
 21
497.6601020467
 31
0.0
  0
LINE
  5
A1
330
1F
100
AcDbEntity
  8
0
  6
Continuous
 62
     7
370
    25
100
AcDbLine
 10
304.0544443621
 20
607.6601020467
 30
0.0
 11
190.5544443621
 21
607.6601020467
 31
0.0
  0
SPLINE
  5
A2
330
1F
100
AcDbEntity
  8
0
  6
Continuous
 62
     7
370
    25
100
AcDbSpline
210
0.0
220
0.0
230
1.0
 70
     8
 71
     3
 72
    43
 73
    39
 74
     0
 42
0.000000001
 43
0.00000001
 40
0.0
 40
0.0
 40
0.0
 40
0.0
 40
0.0243269086115777
 40
0.0488369278877162
 40
0.0739155153877775
 40
0.0991850975851867
 40
0.1235094566026229
 40
0.1479930099396906
 40
0.1729547095681163
 40
0.1980721263528067
 40
0.2238449828450832
 40
0.2497762897080264
 40
0.2761961572487395
 40
0.3027831716821737
 40
0.3303355502350953
 40
0.3580896071570603
 40
0.3865169244690086
 40
0.4151976208520168
 40
0.4410454476048726
 40
0.467111454405045
 40
0.4938984496057677
 40
0.5209460283310053
 40
0.5671285519442172
 40
0.5908057121873171
 40
0.614641217185083
 40
0.6620287275834835
 40
0.7105168678970865
 40
0.736971445894005
 40
0.7635936390303738
 40
0.790745104629587
 40
0.8180833281140154
 40
0.8455445881418058
 40
0.8732177276017178
 40
0.9015974282364413
 40
0.9302393693267521
 40
0.9554798595019386
 40
0.9809204986689799
 40
1.0
 40
1.0
 40
1.0
 40
1.0
 10
190.5544443621442
 20
607.6601020467034
 30
0.0
 10
190.5387784107072
 20
607.6280947804161
 30
0.0
 10
190.5073285889136
 20
607.5638393264858
 30
0.0
 10
190.2523075457539
 20
607.0404829716236
 30
0.0
 10
189.8445753767554
 20
606.1955720087404
 30
0.0
 10
189.2817879537784
 20
605.0121407934779
 30
0.0
 10
188.5891657576866
 20
603.5261626896742
 30
0.0
 10
187.7825946477899
 20
601.7518696087935
 30
0.0
 10
186.8664633294561
 20
599.6723851622606
 30
0.0
 10
185.8515293738332
 20
597.2778581304834
 30
0.0
 10
184.7613630175434
 20
594.5815590981575
 30
0.0
 10
183.6140747858689
 20
591.5758339641562
 30
0.0
 10
182.4427280550546
 20
588.2850778882084
 30
0.0
 10
181.2647706397788
 20
584.6812164352515
 30
0.0
 10
180.1176160124156
 20
580.7800653485689
 30
0.0
 10
179.0330173292926
 20
576.5634962326122
 30
0.0
 10
178.0619904058175
 20
572.0795727948924
 30
0.0
 10
177.2769990916807
 20
567.5163098351514
 30
0.0
 10
176.698111115995
 20
562.9502205198037
 30
0.0
 10
176.3250982594619
 20
558.4008928541331
 30
0.0
 10
176.1611560691819
 20
553.7276230960842
 30
0.0
 10
176.2384014695697
 20
547.8665650648509
 30
0.0
 10
176.6842459400628
 20
542.2365332024647
 30
0.0
 10
177.4146479228633
 20
536.9668609522652
 30
0.0
 10
178.3360031699995
 20
531.7723940258652
 30
0.0
 10
179.7933487288288
 20
525.5399596051333
 30
0.0
 10
181.532253193567
 20
519.7359281997125
 30
0.0
 10
183.0328672701195
 20
515.34489846393
 30
0.0
 10
184.2208971398807
 20
512.1286450017612
 30
0.0
 10
185.3941472077735
 20
509.153546151619
 30
0.0
 10
186.5206380324467
 20
506.4493007778788
 30
0.0
 10
187.5649418820215
 20
504.0532426871348
 30
0.0
 10
188.5029075012818
 20
501.9791536407942
 30
0.0
 10
189.3028544418894
 20
500.2620038546849
 30
0.0
 10
189.908358631144
 20
498.9915806488063
 30
0.0
 10
190.309621102545
 20
498.1616949599863
 30
0.0
 10
190.5284571061365
 20
497.7132144260007
 30
0.0
 10
190.5338238404257
 20
497.7022816144136
 30
0.0
 10
190.5361238020357
 20
497.6975962609782
 30
0.0
  0
LINE
  5
A3
330
1F
100
AcDbEntity
  8
0
  6
Continuous
 62
     7
370
    25
100
AcDbLine
 10
-34.4455556379
 20
816.1601020467
 30
0.0
 11
190.5544443621
 21
816.1601020467
 31
0.0
  0
LINE
  5
A4
330
1F
100
AcDbEntity
  8
0
  6
Continuous
 62
     7
370
    25
100
AcDbLine
 10
-34.4455556379
 20
289.1601020467
 30
0.0
 11
190.5544443621
 21
289.1601020467
 31
0.0
  0
LINE
  5
A5
330
1F
100
AcDbEntity
  8
0
  6
Continuous
 62
     7
370
    25
100
AcDbLine
 10
304.0544443621
 20
607.6601020467
 30
0.0
 11
304.0544443621
 21
497.6601020467
 31
0.0
  0
LINE
  5
A6
330
1F
100
AcDbEntity
  8
0
  6
Continuous
 62
     7
370
    25
100
AcDbLine
 10
370.9198894133
 20
-5.7557715598
 30
0.0
 11
897.9198894133
 21
-5.7557715598
 31
0.0
  0
LINE
  5
A7
330
1F
100
AcDbEntity
  8
0
  6
Continuous
 62
     7
370
    25
100
AcDbLine
 10
897.9198894133
 20
219.2442284402
 30
0.0
 11
370.9198894133
 21
219.2442284402
 31
0.0
  0
LINE
  5
A8
330
1F
100
AcDbEntity
  8
0
  6
Continuous
 62
     7
370
    25
100
AcDbLine
 10
897.9198894133
 20
219.2442284402
 30
0.0
 11
897.9198894133
 21
-5.7557715598
 31
0.0
  0
LINE
  5
A9
330
1F
100
AcDbEntity
  8
0
  6
Continuous
 62
     7
370
    25
100
AcDbLine
 10
370.9198894133
 20
219.2442284402
 30
0.0
 11
370.9198894133
 21
-5.7557715598
 31
0.0
  0
LINE
  5
AA
330
1F
100
AcDbEntity
  8
0
  6
Continuous
 62
     7
370
    25
100
AcDbLine
 10
-106.98987428
 20
219.2442284402
 30
0.0
 11
-633.98987428
 21
219.2442284402
 31
0.0
  0
LINE
  5
AB
330
1F
100
AcDbEntity
  8
0
  6
Continuous
 62
     7
370
    25
100
AcDbLine
 10
-633.98987428
 20
-5.7557715598
 30
0.0
 11
-106.98987428
 21
-5.7557715598
 31
0.0
  0
CIRCLE
  5
AC
330
1F
100
AcDbEntity
  8
0
  6
Continuous
 62
     7
370
    25
100
AcDbCircle
 10
-370.48987428
 20
106.7442284402
 30
0.0
 40
44.99999999999994
  0
CIRCLE
  5
AD
330
1F
100
AcDbEntity
  8
0
  6
Continuous
 62
     7
370
    25
100
AcDbCircle
 10
-370.48987428
 20
106.7442284402
 30
0.0
 40
55.0
  0
LINE
  5
AE
330
1F
100
AcDbEntity
  8
0
  6
Continuous
 62
     7
370
    25
100
AcDbLine
 10
-633.98987428
 20
106.7442284402
 30
0.0
 11
-633.98987428
 21
219.2442284402
 31
0.0
  0
LINE
  5
AF
330
1F
100
AcDbEntity
  8
0
  6
Continuous
 62
     7
370
    25
100
AcDbLine
 10
-633.98987428
 20
-5.7557715598
 30
0.0
 11
-633.98987428
 21
106.7442284402
 31
0.0
  0
LINE
  5
B0
330
1F
100
AcDbEntity
  8
0
  6
Continuous
 62
     7
370
    25
100
AcDbLine
 10
-106.98987428
 20
106.7442284402
 30
0.0
 11
-106.98987428
 21
219.2442284402
 31
0.0
  0
LINE
  5
B1
330
1F
100
AcDbEntity
  8
0
  6
Continuous
 62
     7
370
    25
100
AcDbLine
 10
-106.98987428
 20
-5.7557715598
 30
0.0
 11
-106.98987428
 21
106.7442284402
 31
0.0
  0
INSERT
  5
BD
330
1F
100
AcDbEntity
  8
FORMAT
100
AcDbBlockReference
  2
SW_CENTERMARKSYMBOL_1
 10
-370.48987428
 20
106.7442284402
 30
0.0
  0
LINE
  5
BE
330
1F
100
AcDbEntity
  8
0
  6
Continuous
 62
     7
370
    25
100
AcDbLine
 10
865.3367900825
 20
-302.9819707196
 30
0.0
 11
790.2823379188
 21
-259.6539577482
 31
0.0
  0
LINE
  5
BF
330
1F
100
AcDbEntity
  8
0
  6
Continuous
 62
     7
370
    25
100
AcDbLine
 10
680.2733977823
 20
-196.1471483878
 30
0.0
 11
492.6915163972
 21
-87.8584332543
 31
0.0
  0
LINE
  5
C0
330
1F
100
AcDbEntity
  8
0
  6
Continuous
 62
     7
370
    25
100
AcDbLine
 10
380.2006589756
 20
-282.71942729
 30
0.0
 11
752.8459326609
 21
-497.8429647552
 31
0.0
  0
LINE
  5
C1
330
1F
100
AcDbEntity
  8
0
  6
Continuous
 62
     7
370
    25
100
AcDbLine
 10
724.9094936587
 20
-297.3928974437
 30
0.0
 11
810.0726222247
 21
-248.2292697997
 31
0.0
  0
LINE
  5
C2
330
1F
100
AcDbEntity
  8
0
  6
Continuous
 62
     7
370
    25
100
AcDbLine
 10
755.0770919297
 20
-152.9638949379
 30
0.0
 11
669.9137398866
 21
-202.1276515924
 31
0.0
  0
SPLINE
  5
C3
330
1F
100
AcDbEntity
  8
0
  6
Continuous
 62
     7
370
    25
100
AcDbSpline
210
0.0
220
0.0
230
1.0
 70
     8
 71
     3
 72
    34
 73
    30
 74
     0
 42
0.000000001
 43
0.00000001
 40
0.0
 40
0.0
 40
0.0
 40
0.0
 40
0.0324270871110304
 40
0.0654764899862259
 40
0.0985270137903286
 40
0.1322106583609647
 40
0.1646343469344888
 40
0.1975879666549281
 40
0.2305433190320281
 40
0.2640241313738635
 40
0.2983786264689529
 40
0.3329443314655725
 40
0.368161274147589
 40
0.4036010189512046
 40
0.4403275670596011
 40
0.4773229467793544
 40
0.515215763722348
 40
0.5534463278629228
 40
0.5879007562133778
 40
0.6226460124496606
 40
0.6583523260090903
 40
0.6944059901005614
 40
0.740971613767721
 40
0.7875450128475088
 40
0.8193170727191074
 40
0.8824832954479777
 40
0.9471166269947884
 40
0.9823798377417289
 40
1.0
 40
1.0
 40
1.0
 40
1.0
 10
663.4273644472686
 20
-224.4765196396171
 30
0.0
 10
663.4389178921842
 20
-225.6591769906246
 30
0.0
 10
663.4622465068614
 20
-228.047188344689
 30
0.0
 10
663.6529108353894
 20
-231.8744293601789
 30
0.0
 10
663.9626248495022
 20
-235.8849478311526
 30
0.0
 10
664.3998663567237
 20
-239.992577086726
 30
0.0
 10
664.9626203472765
 20
-244.1774686269495
 30
0.0
 10
665.6476224119777
 20
-248.3823111611981
 30
0.0
 10
666.4707818123896
 20
-252.6524785930143
 30
0.0
 10
667.4432625846564
 20
-256.9739802266843
 30
0.0
 10
668.5789620779559
 20
-261.3254905460902
 30
0.0
 10
669.8930775471262
 20
-265.6802383798537
 30
0.0
 10
671.3917256800528
 20
-269.9781423395661
 30
0.0
 10
673.1070990490404
 20
-274.2269720871756
 30
0.0
 10
675.0544685222415
 20
-278.3700410660151
 30
0.0
 10
677.2691062727063
 20
-282.384007153507
 30
0.0
 10
679.7530984231032
 20
-286.1818068753937
 30
0.0
 10
682.4247428265446
 20
-289.5815797551223
 30
0.0
 10
685.2441100857019
 20
-292.5520893785003
 30
0.0
 10
688.1972471501806
 20
-295.1108234885456
 30
0.0
 10
691.3856823838961
 20
-297.3238480558407
 30
0.0
 10
695.1130230942563
 20
-299.3203717087996
 30
0.0
 10
699.3720890487216
 20
-300.8909246225786
 30
0.0
 10
703.610977286392
 20
-301.7487152776357
 30
0.0
 10
708.4477272954515
 20
-302.0908900866542
 30
0.0
 10
713.8898483093218
 20
-301.6601140342905
 30
0.0
 10
719.2074726122103
 20
-300.1337451915506
 30
0.0
 10
722.8540404482751
 20
-298.5672211689741
 30
0.0
 10
724.3783364927912
 20
-297.656148544274
 30
0.0
 10
724.8862152854576
 20
-297.3525890970598
 30
0.0
  0
SPLINE
  5
C4
330
1F
100
AcDbEntity
  8
0
  6
Continuous
 62
     7
370
    25
100
AcDbSpline
210
0.0
220
0.0
230
1.0
 70
     8
 71
     3
 72
    16
 73
    12
 74
     0
 42
0.000000001
 43
0.00000001
 40
0.0
 40
0.0
 40
0.0
 40
0.0
 40
0.0689189765689977
 40
0.1781580841136086
 40
0.2897461756845193
 40
0.4021837072932831
 40
0.510432132609293
 40
0.6195453361613044
 40
0.7315385550494291
 40
0.8445932545458544
 40
1.0
 40
1.0
 40
1.0
 40
1.0
 10
669.9363614151466
 20
-202.1662525511423
 30
0.0
 10
669.6270738641659
 20
-202.3418180050234
 30
0.0
 10
668.8275541924289
 20
-202.7956611474659
 30
0.0
 10
667.7323521474791
 20
-203.9282966524977
 30
0.0
 10
666.6192724261368
 20
-205.5415687708173
 30
0.0
 10
665.6877170030959
 20
-207.5368511378789
 30
0.0
 10
664.9228856069143
 20
-209.8778310342122
 30
0.0
 10
664.3142272331455
 20
-212.5688899220395
 30
0.0
 10
663.8582123555018
 20
-215.6597893624027
 30
0.0
 10
663.505869677078
 20
-219.5433891560311
 30
0.0
 10
663.456147551408
 20
-222.6678400295177
 30
0.0
 10
663.4273644472686
 20
-224.4765196396171
 30
0.0
  0
LWPOLYLINE
  5
C5
330
1F
100
AcDbEntity
  8
0
  6
Continuous
 62
     7
370
    25
100
AcDbPolyline
 90
      113
 70
   128
 43
0.0
 10
515.9956005699
 20
-139.3659739821
 10
515.8704544709
 20
-134.2875408299
 10
515.4954099298
 20
-129.3695769176
 10
514.8716469755
 20
-124.6275559791
 10
514.001128197
 20
-120.0763981667
 10
512.8865925684
 20
-115.7304231066
 10
511.5315468313
 20
-111.6033048442
 10
509.9402544607
 20
-107.7080288205
 10
508.1177222512
 20
-104.0568510149
 10
506.0696845634
 20
-100.6612593836
 10
503.8025852817
 20
-97.5319377142
 10
501.3235575389
 20
-94.6787320103
 10
498.6404012737
 20
-92.1106195127
 10
495.7615586882
 20
-89.8356804534
 10
492.6960876864
 20
-87.8610726323
 10
489.453633374
 20
-86.1930088962
 10
486.0443977121
 20
-84.8367375907
 10
482.4791074171
 20
-83.7965260471
 10
478.7689802116
 20
-83.0756471558
 10
474.9256895282
 20
-82.6763690684
 10
470.9613277813
 20
-82.5999480616
 10
466.8883683196
 20
-82.8466245841
 10
462.7196261805
 20
-83.4156225002
 10
458.4682177691
 20
-84.3051515321
 10
454.147519589
 20
-85.5124128923
 10
449.7711261552
 20
-87.03360809
 10
445.3528072207
 20
-88.8639508822
 10
440.9064644513
 20
-90.9976823334
 10
436.4460876864
 20
-93.428088935
 10
431.9857109215
 20
-96.1475237287
 10
427.5393681521
 20
-99.1474303665
 10
423.1210492175
 20
-102.4183700323
 10
418.7446557838
 20
-105.9500511397
 10
414.4239576037
 20
-109.7313617135
 10
410.1725491922
 20
-113.7504043516
 10
406.0038070532
 20
-117.9945336589
 10
401.9308475915
 20
-122.4503960345
 10
397.9664858446
 20
-127.1039716868
 10
394.1231951612
 20
-131.9406187452
 10
390.4130679556
 20
-136.9451193286
 10
386.8477776607
 20
-142.1017274268
 10
383.4385419987
 20
-147.3942184428
 10
380.1960876864
 20
-152.8059402419
 10
377.1306166845
 20
-158.3198655453
 10
374.2517740991
 20
-163.9186455038
 10
371.5686178338
 20
-169.5846642845
 10
369.0895900911
 20
-175.3000944959
 10
366.8224908093
 20
-181.0469532803
 10
364.7744531216
 20
-186.8071588936
 10
362.9519209121
 20
-192.5625875981
 10
361.3606285415
 20
-198.2951306855
 10
360.0055828043
 20
-203.9867514547
 10
358.8910471758
 20
-209.6195419608
 10
358.0205283973
 20
-215.1757793612
 10
357.396765443
 20
-220.6379816772
 10
357.0217209019
 20
-225.9889627996
 10
356.8965748029
 20
-231.2118865622
 10
357.0217209019
 20
-236.2903197143
 10
357.396765443
 20
-241.2082836266
 10
358.0205283973
 20
-245.9503045651
 10
358.8910471758
 20
-250.5014623775
 10
360.0055828043
 20
-254.8474374376
 10
361.3606285415
 20
-258.9745557
 10
362.9519209121
 20
-262.8698317237
 10
364.7744531216
 20
-266.5210095293
 10
366.8224908093
 20
-269.9166011606
 10
369.0895900911
 20
-273.04592283
 10
371.5686178338
 20
-275.8991285339
 10
374.2517740991
 20
-278.4672410315
 10
377.1306166845
 20
-280.7421800909
 10
380.1960876864
 20
-282.7167879119
 10
383.4385419987
 20
-284.384851648
 10
386.8477776607
 20
-285.7411229535
 10
390.4130679556
 20
-286.7813344971
 10
394.1231951612
 20
-287.5022133885
 10
397.9664858446
 20
-287.9014914758
 10
401.9308475915
 20
-287.9779124827
 10
406.0038070532
 20
-287.7312359602
 10
410.1725491922
 20
-287.162238044
 10
414.4239576037
 20
-286.2727090121
 10
418.7446557838
 20
-285.0654476519
 10
423.1210492175
 20
-283.5442524543
 10
427.5393681521
 20
-281.713909662
 10
431.9857109215
 20
-279.5801782109
 10
436.4460876864
 20
-277.1497716093
 10
440.9064644513
 20
-274.4303368156
 10
445.3528072207
 20
-271.4304301778
 10
449.7711261552
 20
-268.159490512
 10
454.147519589
 20
-264.6278094045
 10
458.4682177691
 20
-260.8464988308
 10
462.7196261805
 20
-256.8274561927
 10
466.8883683196
 20
-252.5833268854
 10
470.9613277813
 20
-248.1274645098
 10
474.9256895282
 20
-243.4738888574
 10
478.7689802116
 20
-238.6372417991
 10
482.4791074171
 20
-233.6327412156
 10
486.0443977121
 20
-228.4761331175
 10
489.453633374
 20
-223.1836421014
 10
492.6960876864
 20
-217.7719203023
 10
495.7615586882
 20
-212.257994999
 10
498.6404012737
 20
-206.6592150405
 10
501.3235575389
 20
-200.9931962598
 10
503.8025852817
 20
-195.2777660483
 10
506.0696845634
 20
-189.530907264
 10
508.1177222512
 20
-183.7707016506
 10
509.9402544607
 20
-178.0152729462
 10
511.5315468313
 20
-172.2827298587
 10
512.8865925684
 20
-166.5911090896
 10
514.001128197
 20
-160.9583185834
 10
514.8716469755
 20
-155.4020811831
 10
515.4954099298
 20
-149.9398788671
 10
515.8704544709
 20
-144.5888977446
 10
515.9956005699
 20
-139.3659739821
  0
LWPOLYLINE
  5
C6
330
1F
100
AcDbEntity
  8
0
  6
Continuous
 62
     7
370
    25
100
AcDbPolyline
 90
       16
 70
   128
 43
0.0
 10
888.6408742552
 20
-354.4895114474
 10
888.5157281562
 20
-349.4110782952
 10
888.1406836151
 20
-344.4931143829
 10
887.5169206608
 20
-339.7510934444
 10
886.6464018823
 20
-335.199935632
 10
885.5318662537
 20
-330.8539605719
 10
884.1768205166
 20
-326.7268423095
 10
882.585528146
 20
-322.8315662858
 10
880.7629959365
 20
-319.1803884802
 10
878.7149582488
 20
-315.7847968489
 10
876.447858967
 20
-312.6554751795
 10
873.9688312242
 20
-309.8022694756
 10
871.285674959
 20
-307.234156978
 10
868.4068323735
 20
-304.9592179187
 10
865.3413613717
 20
-302.9846100976
 10
865.3367900825
 20
-302.9819707196
  0
LWPOLYLINE
  5
C7
330
1F
100
AcDbEntity
  8
0
  6
Continuous
 62
     7
370
    25
100
AcDbPolyline
 90
       43
 70
   128
 43
0.0
 10
752.8459326609
 20
-497.8429647552
 10
756.083815684
 20
-499.5083891133
 10
759.493051346
 20
-500.8646604188
 10
763.0583416409
 20
-501.9048719624
 10
766.7684688465
 20
-502.6257508537
 10
770.6117595299
 20
-503.0250289411
 10
774.5761212768
 20
-503.101449948
 10
778.6490807385
 20
-502.8547734255
 10
782.8178228776
 20
-502.2857755093
 10
787.069231289
 20
-501.3962464774
 10
791.3899294691
 20
-500.1889851172
 10
795.7663229029
 20
-498.6677899195
 10
800.1846418374
 20
-496.8374471273
 10
804.6309846068
 20
-494.7037156762
 10
809.0913613717
 20
-492.2733090746
 10
813.5517381366
 20
-489.5538742809
 10
817.998080906
 20
-486.5539676431
 10
822.4163998405
 20
-483.2830279773
 10
826.7927932743
 20
-479.7513468698
 10
831.1134914544
 20
-475.970036296
 10
835.3648998658
 20
-471.950993658
 10
839.5336420049
 20
-467.7068643506
 10
843.6066014666
 20
-463.2510019751
 10
847.5709632135
 20
-458.5974263227
 10
851.4142538969
 20
-453.7607792643
 10
855.1243811025
 20
-448.7562786809
 10
858.6896713974
 20
-443.5996705828
 10
862.0989070594
 20
-438.3071795667
 10
865.3413613717
 20
-432.8954577676
 10
868.4068323735
 20
-427.3815324643
 10
871.285674959
 20
-421.7827525057
 10
873.9688312242
 20
-416.1167337251
 10
876.447858967
 20
-410.4013035136
 10
878.7149582488
 20
-404.6544447292
 10
880.7629959365
 20
-398.8942391159
 10
882.585528146
 20
-393.1388104115
 10
884.1768205166
 20
-387.406267324
 10
885.5318662537
 20
-381.7146465549
 10
886.6464018823
 20
-376.0818560487
 10
887.5169206608
 20
-370.5256186484
 10
888.1406836151
 20
-365.0634163323
 10
888.5157281562
 20
-359.7124352099
 10
888.6408742552
 20
-354.4895114474
  0
LWPOLYLINE
  5
C8
330
1F
100
AcDbEntity
  8
0
  6
Continuous
 62
     7
370
    25
100
AcDbPolyline
 90
      102
 70
   128
 43
0.0
 10
501.4999115555
 20
-147.7341571283
 10
501.3740712522
 20
-143.1365109366
 10
500.9970371938
 20
-138.7019442665
 10
500.3702680519
 20
-134.4476135949
 10
499.4961886745
 20
-130.3899781007
 10
498.378180705
 20
-126.5447359875
 10
497.0205694989
 20
-122.9267637498
 10
495.4286073904
 20
-119.5500586195
 10
493.6084533714
 20
-116.4276844127
 10
491.5671492645
 20
-113.5717209887
 10
489.3125924785
 20
-110.9932175151
 10
486.8535054556
 20
-108.7021497209
 10
484.199401926
 20
-106.7073813024
 10
481.3605501004
 20
-105.016629631
 10
478.3479329452
 20
-103.6364358965
 10
475.1732056908
 20
-102.5721398004
 10
471.8486507403
 20
-101.8278588974
 10
468.3871301508
 20
-101.4064726659
 10
464.8020358732
 20
-101.3096113672
 10
461.1072379407
 20
-101.5376497389
 10
457.3170308086
 20
-102.0897055449
 10
453.4460780522
 20
-102.9636429885
 10
449.5093556356
 20
-104.1560809754
 10
445.5220939731
 20
-105.6624061949
 10
441.4997190054
 20
-107.4767909672
 10
437.4577925199
 20
-109.5922157901
 10
433.4119519449
 20
-112.000496496
 10
429.3778498517
 20
-114.6923159146
 10
425.3710933976
 20
-117.6572599195
 10
421.4071839448
 20
-120.8838577184
 10
417.501457089
 20
-124.3596262313
 10
413.6690233288
 20
-128.0711183849
 10
409.9247096056
 20
-132.0039751371
 10
406.2830019421
 20
-136.1429810293
 10
402.7579893975
 20
-140.4721230516
 10
399.3633095608
 20
-144.9746525947
 10
396.1120957887
 20
-149.6331502463
 10
393.0169263956
 20
-154.4295931841
 10
390.0897759907
 20
-159.3454249021
 10
387.3419691503
 20
-164.3616270025
 10
384.7841366052
 20
-169.4587927737
 10
382.4261741125
 20
-174.6172022716
 10
380.2772041712
 20
-179.8168986119
 10
378.3455407285
 20
-185.0377651798
 10
376.6386570149
 20
-190.2596034565
 10
375.1631566319
 20
-195.4622111644
 10
373.9247480039
 20
-200.6254604248
 10
372.9282222933
 20
-205.7293756295
 10
372.1774348645
 20
-210.754210722
 10
371.6752903682
 20
-215.6805255915
 10
371.4237315038
 20
-220.4892612827
 10
371.4237315038
 20
-225.1618137316
 10
371.6752903682
 20
-229.6801057404
 10
372.1774348645
 20
-234.026656915
 10
372.9282222933
 20
-238.1846512934
 10
373.9247480039
 20
-242.138002403
 10
375.1631566319
 20
-245.8714154965
 10
376.6386570149
 20
-249.3704467239
 10
378.3455407285
 20
-252.621559013
 10
380.2772041712
 20
-255.6121744421
 10
382.4261741125
 20
-258.3307229009
 10
384.7841366052
 20
-260.7666868537
 10
387.3419691503
 20
-262.9106420291
 10
390.0897759907
 20
-264.7542938811
 10
393.0169263956
 20
-266.2905096789
 10
396.1120957887
 20
-267.5133461018
 10
399.3633095608
 20
-268.4180722334
 10
402.7579893975
 20
-269.001187864
 10
406.2830019421
 20
-269.2604370325
 10
409.9247096056
 20
-269.1948167543
 10
413.6690233288
 20
-268.8045809015
 10
417.501457089
 20
-268.0912392207
 10
421.4071839448
 20
-267.0575514923
 10
425.3710933976
 20
-265.7075168535
 10
429.3778498517
 20
-264.0463583258
 10
433.4119519449
 20
-262.080502609
 10
437.4577925199
 20
-259.8175552169
 10
441.4997190054
 20
-257.2662710533
 10
445.5220939731
 20
-254.4365205411
 10
449.5093556356
 20
-251.3392514353
 10
453.4460780522
 20
-247.9864464682
 10
457.3170308086
 20
-244.3910769911
 10
461.1072379407
 20
-240.56705279
 10
464.8020358732
 20
-236.5291682715
 10
468.3871301508
 20
-232.2930452266
 10
471.8486507403
 20
-227.8750723922
 10
475.1732056908
 20
-223.292342047
 10
478.3479329452
 20
-218.5625838845
 10
481.3605501004
 20
-213.7040964202
 10
484.199401926
 20
-208.7356761982
 10
486.8535054556
 20
-203.6765450711
 10
489.3125924785
 20
-198.5462758345
 10
491.5671492645
 20
-193.3647165033
 10
493.6084533714
 20
-188.1519135241
 10
495.4286073904
 20
-182.9280342189
 10
497.0205694989
 20
-177.7132887618
 10
498.378180705
 20
-172.5278519901
 10
499.4961886745
 20
-167.3917853512
 10
500.3702680519
 20
-162.3249592891
 10
500.9970371938
 20
-157.3469763696
 10
501.3740712522
 20
-152.4770954416
 10
501.4999115555
 20
-147.7341571283
  0
LWPOLYLINE
  5
C9
330
1F
100
AcDbEntity
  8
0
  6
Continuous
 62
     7
370
    25
100
AcDbPolyline
 90
       72
 70
   128
 43
0.0
 10
814.3946622306
 20
-218.9657648848
 10
814.2701456715
 20
-215.646414699
 10
813.8975705051
 20
-212.2092791698
 10
813.2798526372
 20
-208.6812585432
 10
812.4218265477
 20
-205.0899643638
 10
811.330207454
 20
-201.463503378
 10
810.0135387557
 20
-197.8302575599
 10
808.4821251706
 20
-194.2186619841
 10
806.7479520862
 20
-190.6569822828
 10
804.8245917583
 20
-187.1730934289
 10
802.7270970892
 20
-183.7942615761
 10
800.4718838186
 20
-180.5469306649
 10
798.0766020481
 20
-177.4565154627
 10
795.5599981051
 20
-174.5472026584
 10
792.9417678277
 20
-171.8417615695
 10
790.2424024176
 20
-169.3613659405
 10
787.4830280693
 20
-167.1254282303
 10
784.6852406282
 20
-165.1514476832
 10
781.8709365744
 20
-163.4548733732
 10
779.062141653
 20
-162.0489832948
 10
776.2808384925
 20
-160.9447804438
 10
773.5487945611
 20
-160.1509067048
 10
770.887391807
 20
-159.6735752162
 10
768.317459315
 20
-159.516521744
 10
765.8591102914
 20
-159.6809754446
 10
763.5315846505
 20
-160.1656492448
 10
761.3530984361
 20
-160.966749915
 10
759.3407012566
 20
-162.0780077562
 10
757.5101428485
 20
-163.4907256692
 10
755.8757498131
 20
-165.1938472209
 10
754.4503134921
 20
-167.1740431759
 10
753.2449898574
 20
-169.415815816
 10
752.2692122005
 20
-171.9016202308
 10
751.5306173047
 20
-174.6120016305
 10
751.0349856764
 20
-177.5257476056
 10
750.7861963052
 20
-180.6200541433
 10
750.7861963052
 20
-183.8707040996
 10
751.0349856764
 20
-187.2522567311
 10
751.5306173047
 20
-190.7382468037
 10
752.2692122005
 20
-194.3013917185
 10
753.2449898574
 20
-197.9138050354
 10
754.4503134921
 20
-201.5472147224
 10
755.8757498131
 20
-205.1731844223
 10
757.5101428485
 20
-208.763336006
 10
759.3407012566
 20
-212.2895716696
 10
761.3530984361
 20
-215.7242938379
 10
763.5315846505
 20
-219.0406211531
 10
765.8591102914
 20
-222.2125988575
 10
768.317459315
 20
-225.2154019248
 10
770.887391807
 20
-228.0255293496
 10
773.5487945611
 20
-230.6209880747
 10
776.2808384925
 20
-232.9814651166
 10
779.062141653
 20
-235.0884865419
 10
781.8709365744
 20
-236.9255620513
 10
784.6852406282
 20
-238.4783140379
 10
787.4830280693
 20
-239.7345901124
 10
790.2424024176
 20
-240.6845582109
 10
792.9417678277
 20
-241.3207835452
 10
795.5599981051
 20
-241.6382867894
 10
798.0766020481
 20
-241.6345830501
 10
800.4718838186
 20
-241.309701314
 10
802.7270970892
 20
-240.6661842214
 10
804.8245917583
 20
-239.7090681659
 10
806.7479520862
 20
-238.4458438783
 10
808.4821251706
 20
-236.8863978015
 10
810.0135387557
 20
-235.0429347154
 10
811.330207454
 20
-232.9298822181
 10
812.4218265477
 20
-230.5637778104
 10
813.2798526372
 20
-227.9631394673
 10
813.8975705051
 20
-225.1483207099
 10
814.2701456715
 20
-222.1413513116
 10
814.3946622306
 20
-218.9657648848
  0
LWPOLYLINE
  5
CA
330
1F
100
AcDbEntity
  8
0
  6
Continuous
 62
     7
370
    25
100
AcDbPolyline
 90
       79
 70
   128
 43
0.0
 10
821.4657300425
 20
-223.0478054439
 10
821.339618925
 20
-219.3612699913
 10
820.9621034518
 20
-215.5530383387
 10
820.3356319554
 20
-211.64780833
 10
819.4642673439
 20
-207.6709068802
 10
818.3536607512
 20
-203.6481257213
 10
817.0110148872
 20
-199.6055541328
 10
815.4450373256
 20
-195.5694097427
 10
813.6658840317
 20
-191.5658684961
 10
811.6850934975
 20
-187.6208948944
 10
809.5155119095
 20
-183.7600736052
 10
807.1712098369
 20
-180.0084435359
 10
804.6673909784
 20
-176.3903354474
 10
802.0202935598
 20
-172.9292141588
 10
799.2470850239
 20
-169.6475263699
 10
796.365750692
 20
-166.5665550852
 10
793.3949771231
 20
-163.706281586
 10
790.3540309236
 20
-161.0852558432
 10
787.2626337967
 20
-158.7204762147
 10
784.1408346388
 20
-156.6272792038
 10
781.0088795156
 20
-154.8192399964
 10
777.8870803577
 20
-153.3080844204
 10
774.7956832308
 20
-152.1036128998
 10
771.7547370313
 20
-151.2136368944
 10
768.7839634624
 20
-150.6439282402
 10
765.9026291305
 20
-150.3981817165
 10
763.1294205946
 20
-150.4779910836
 10
760.482323176
 20
-150.8828387474
 10
757.9785043175
 20
-151.6100991153
 10
755.6342022449
 20
-152.6550556247
 10
753.4646206569
 20
-154.0109313318
 10
751.4838301227
 20
-155.6689328622
 10
749.7046768288
 20
-157.6183074398
 10
748.1386992672
 20
-159.8464126225
 10
746.7960534032
 20
-162.3387982931
 10
745.6854468105
 20
-165.0793003741
 10
744.814082199
 20
-168.050145658
 10
744.1876107026
 20
-171.2320670731
 10
743.8100952294
 20
-174.6044286379
 10
743.6839841119
 20
-178.1453592937
 10
743.8100952294
 20
-181.8318947464
 10
744.1876107026
 20
-185.6401263989
 10
744.814082199
 20
-189.5453564076
 10
745.6854468105
 20
-193.5222578574
 10
746.7960534032
 20
-197.5450390163
 10
748.1386992672
 20
-201.5876106048
 10
749.7046768288
 20
-205.6237549949
 10
751.4838301227
 20
-209.6272962415
 10
753.4646206569
 20
-213.5722698432
 10
755.6342022449
 20
-217.4330911324
 10
757.9785043175
 20
-221.1847212017
 10
760.482323176
 20
-224.8028292902
 10
763.1294205946
 20
-228.2639505788
 10
765.9026291305
 20
-231.5456383677
 10
768.7839634624
 20
-234.6266096524
 10
771.7547370313
 20
-237.4868831517
 10
774.7956832308
 20
-240.1079088944
 10
777.8870803577
 20
-242.4726885229
 10
781.0088795156
 20
-244.5658855338
 10
784.1408346388
 20
-246.3739247412
 10
787.2626337967
 20
-247.8850803172
 10
790.3540309236
 20
-249.0895518378
 10
793.3949771231
 20
-249.9795278432
 10
796.365750692
 20
-250.5492364974
 10
799.2470850239
 20
-250.7949830212
 10
802.0202935598
 20
-250.715173654
 10
804.6673909784
 20
-250.3103259902
 10
807.1712098369
 20
-249.5830656223
 10
809.5155119095
 20
-248.5381091129
 10
811.6850934975
 20
-247.1822334058
 10
813.6658840317
 20
-245.5242318754
 10
815.4450373256
 20
-243.5748572978
 10
817.0110148872
 20
-241.3467521151
 10
818.3536607512
 20
-238.8543664445
 10
819.4642673439
 20
-236.1138643635
 10
820.3356319554
 20
-233.1430190796
 10
820.9621034518
 20
-229.9610976645
 10
821.339618925
 20
-226.5887360997
 10
821.4657300425
 20
-223.0478054439
  0
ENDSEC
  0
SECTION
  2
OBJECTS
  0
DICTIONARY
  5
C
330
0
100
AcDbDictionary
281
     1
  3
ACAD_GROUP
350
D
  3
ACAD_LAYOUT
350
1A
  3
ACAD_MLINESTYLE
350
17
  3
ACAD_PLOTSETTINGS
350
19
  3
ACAD_PLOTSTYLENAME
350
E
  3
ACAD_SCALELIST
350
47
  0
DICTIONARY
  5
D
102
{ACAD_REACTORS
330
C
102
}
330
C
100
AcDbDictionary
281
     1
  0
DICTIONARY
  5
1A
102
{ACAD_REACTORS
330
C
102
}
330
C
100
AcDbDictionary
281
     1
  3
Layout1
350
1E
  3
Layout2
350
26
  3
Model
350
22
  0
DICTIONARY
  5
17
102
{ACAD_REACTORS
330
C
102
}
330
C
100
AcDbDictionary
281
     1
  3
Standard
350
18
  0
DICTIONARY
  5
19
102
{ACAD_REACTORS
330
C
102
}
330
C
100
AcDbDictionary
281
     1
  0
ACDBDICTIONARYWDFLT
  5
E
102
{ACAD_REACTORS
330
C
102
}
330
C
100
AcDbDictionary
281
     1
  3
Normal
350
F
100
AcDbDictionaryWithDefault
340
F
  0
DICTIONARY
  5
47
102
{ACAD_REACTORS
330
C
102
}
330
C
100
AcDbDictionary
281
     1
  3
A0
350
48
  3
A1
350
49
  3
A2
350
4A
  3
A3
350
4B
  3
A4
350
4C
  3
A5
350
4D
  3
A6
350
4E
  3
A7
350
4F
  3
A8
350
50
  3
A9
350
51
  3
B0
350
52
  3
B1
350
53
  3
B2
350
54
  3
B3
350
55
  3
B4
350
56
  3
B5
350
57
  3
B6
350
58
  3
B7
350
59
  3
B8
350
5A
  3
B9
350
5B
  3
C0
350
5C
  3
C1
350
5D
  3
C2
350
5E
  3
C3
350
5F
  3
C4
350
60
  3
C5
350
61
  3
C6
350
62
  3
C7
350
63
  3
C8
350
64
  3
C9
350
65
  3
D0
350
66
  3
D1
350
67
  3
D2
350
68
  0
LAYOUT
  5
1E
102
{ACAD_REACTORS
330
1A
102
}
330
1A
100
AcDbPlotSettings
  1

  2
none_device
  4

  6

 40
0.0
 41
0.0
 42
0.0
 43
0.0
 44
0.0
 45
0.0
 46
0.0
 47
0.0
 48
0.0
 49
0.0
140
0.0
141
0.0
142
1.0
143
1.0
 70
   688
 72
     1
 73
     0
 74
     5
  7

 75
    16
147
1.0
148
0.0
149
0.0
100
AcDbLayout
  1
Layout1
 70
     1
 71
     1
 10
0.0
 20
0.0
 11
420.0
 21
297.0
 12
0.0
 22
0.0
 32
0.0
 14
1.0000000000E+20
 24
1.0000000000E+20
 34
1.0000000000E+20
 15
-1.0000000000E+20
 25
-1.0000000000E+20
 35
-1.0000000000E+20
146
0.0
 13
0.0
 23
0.0
 33
0.0
 16
1.0
 26
0.0
 36
0.0
 17
0.0
 27
1.0
 37
0.0
 76
     0
330
1B
  0
LAYOUT
  5
26
102
{ACAD_REACTORS
330
1A
102
}
330
1A
100
AcDbPlotSettings
  1

  2
none_device
  4

  6

 40
0.0
 41
0.0
 42
0.0
 43
0.0
 44
0.0
 45
0.0
 46
0.0
 47
0.0
 48
0.0
 49
0.0
140
0.0
141
0.0
142
1.0
143
1.0
 70
   688
 72
     1
 73
     0
 74
     5
  7

 75
    16
147
1.0
148
0.0
149
0.0
100
AcDbLayout
  1
Layout2
 70
     1
 71
     2
 10
0.0
 20
0.0
 11
0.0
 21
0.0
 12
0.0
 22
0.0
 32
0.0
 14
0.0
 24
0.0
 34
0.0
 15
0.0
 25
0.0
 35
0.0
146
0.0
 13
0.0
 23
0.0
 33
0.0
 16
1.0
 26
0.0
 36
0.0
 17
0.0
 27
1.0
 37
0.0
 76
     0
330
23
  0
LAYOUT
  5
22
102
{ACAD_REACTORS
330
1A
102
}
330
1A
100
AcDbPlotSettings
  1

  2
none_device
  4
Letter_(8.50_x_11.00_Inches)
  6

 40
6.35
 41
6.35
 42
6.35000508
 43
6.35000508
 44
215.9
 45
279.4
 46
0.0
 47
0.0
 48
0.0
 49
0.0
140
0.0
141
0.0
142
1.0
143
1.0
 70
  1712
 72
     1
 73
     0
 74
     0
  7

 75
     0
147
1.0
148
0.0
149
0.0
100
AcDbLayout
  1
Model
 70
     1
 71
     0
 10
0.0
 20
0.0
 11
279.4
 21
215.9
 12
0.0
 22
0.0
 32
0.0
 14
0.0
 24
0.0
 34
0.0
 15
279.4
 25
215.9
 35
0.0
146
0.0
 13
0.0
 23
0.0
 33
0.0
 16
1.0
 26
0.0
 36
0.0
 17
0.0
 27
1.0
 37
0.0
 76
     0
330
1F
331
29
  0
MLINESTYLE
  5
18
102
{ACAD_REACTORS
330
17
102
}
330
17
100
AcDbMlineStyle
  2
Standard
 70
     0
  3

 62
   256
 51
90.0
 52
90.0
 71
     2
 49
0.5
 62
   256
  6
BYLAYER
 49
-0.5
 62
   256
  6
BYLAYER
  0
ACDBPLACEHOLDER
  5
F
102
{ACAD_REACTORS
330
E
102
}
330
E
  0
SCALE
  5
48
102
{ACAD_REACTORS
330
47
102
}
330
47
100
AcDbScale
 70
     0
300
1:1
140
1.0
141
1.0
290
     1
  0
SCALE
  5
49
102
{ACAD_REACTORS
330
47
102
}
330
47
100
AcDbScale
 70
     0
300
1:2
140
1.0
141
2.0
290
     0
  0
SCALE
  5
4A
102
{ACAD_REACTORS
330
47
102
}
330
47
100
AcDbScale
 70
     0
300
1:4
140
1.0
141
4.0
290
     0
  0
SCALE
  5
4B
102
{ACAD_REACTORS
330
47
102
}
330
47
100
AcDbScale
 70
     0
300
1:5
140
1.0
141
5.0
290
     0
  0
SCALE
  5
4C
102
{ACAD_REACTORS
330
47
102
}
330
47
100
AcDbScale
 70
     0
300
1:8
140
1.0
141
8.0
290
     0
  0
SCALE
  5
4D
102
{ACAD_REACTORS
330
47
102
}
330
47
100
AcDbScale
 70
     0
300
1:10
140
1.0
141
10.0
290
     0
  0
SCALE
  5
4E
102
{ACAD_REACTORS
330
47
102
}
330
47
100
AcDbScale
 70
     0
300
1:16
140
1.0
141
16.0
290
     0
  0
SCALE
  5
4F
102
{ACAD_REACTORS
330
47
102
}
330
47
100
AcDbScale
 70
     0
300
1:20
140
1.0
141
20.0
290
     0
  0
SCALE
  5
50
102
{ACAD_REACTORS
330
47
102
}
330
47
100
AcDbScale
 70
     0
300
1:30
140
1.0
141
30.0
290
     0
  0
SCALE
  5
51
102
{ACAD_REACTORS
330
47
102
}
330
47
100
AcDbScale
 70
     0
300
1:40
140
1.0
141
40.0
290
     0
  0
SCALE
  5
52
102
{ACAD_REACTORS
330
47
102
}
330
47
100
AcDbScale
 70
     0
300
1:50
140
1.0
141
50.0
290
     0
  0
SCALE
  5
53
102
{ACAD_REACTORS
330
47
102
}
330
47
100
AcDbScale
 70
     0
300
1:100
140
1.0
141
100.0
290
     0
  0
SCALE
  5
54
102
{ACAD_REACTORS
330
47
102
}
330
47
100
AcDbScale
 70
     0
300
2:1
140
2.0
141
1.0
290
     0
  0
SCALE
  5
55
102
{ACAD_REACTORS
330
47
102
}
330
47
100
AcDbScale
 70
     0
300
4:1
140
4.0
141
1.0
290
     0
  0
SCALE
  5
56
102
{ACAD_REACTORS
330
47
102
}
330
47
100
AcDbScale
 70
     0
300
8:1
140
8.0
141
1.0
290
     0
  0
SCALE
  5
57
102
{ACAD_REACTORS
330
47
102
}
330
47
100
AcDbScale
 70
     0
300
10:1
140
10.0
141
1.0
290
     0
  0
SCALE
  5
58
102
{ACAD_REACTORS
330
47
102
}
330
47
100
AcDbScale
 70
     0
300
100:1
140
100.0
141
1.0
290
     0
  0
SCALE
  5
59
102
{ACAD_REACTORS
330
47
102
}
330
47
100
AcDbScale
 70
     0
300
1/128" = 1'-0"
140
0.0078125
141
12.0
290
     0
  0
SCALE
  5
5A
102
{ACAD_REACTORS
330
47
102
}
330
47
100
AcDbScale
 70
     0
300
1/64" = 1'-0"
140
0.015625
141
12.0
290
     0
  0
SCALE
  5
5B
102
{ACAD_REACTORS
330
47
102
}
330
47
100
AcDbScale
 70
     0
300
1/32" = 1'-0"
140
0.03125
141
12.0
290
     0
  0
SCALE
  5
5C
102
{ACAD_REACTORS
330
47
102
}
330
47
100
AcDbScale
 70
     0
300
1/16" = 1'-0"
140
0.0625
141
12.0
290
     0
  0
SCALE
  5
5D
102
{ACAD_REACTORS
330
47
102
}
330
47
100
AcDbScale
 70
     0
300
3/32" = 1'-0"
140
0.09375
141
12.0
290
     0
  0
SCALE
  5
5E
102
{ACAD_REACTORS
330
47
102
}
330
47
100
AcDbScale
 70
     0
300
1/8" = 1'-0"
140
0.125
141
12.0
290
     0
  0
SCALE
  5
5F
102
{ACAD_REACTORS
330
47
102
}
330
47
100
AcDbScale
 70
     0
300
3/16" = 1'-0"
140
0.1875
141
12.0
290
     0
  0
SCALE
  5
60
102
{ACAD_REACTORS
330
47
102
}
330
47
100
AcDbScale
 70
     0
300
1/4" = 1'-0"
140
0.25
141
12.0
290
     0
  0
SCALE
  5
61
102
{ACAD_REACTORS
330
47
102
}
330
47
100
AcDbScale
 70
     0
300
3/8" = 1'-0"
140
0.375
141
12.0
290
     0
  0
SCALE
  5
62
102
{ACAD_REACTORS
330
47
102
}
330
47
100
AcDbScale
 70
     0
300
1/2" = 1'-0"
140
0.5
141
12.0
290
     0
  0
SCALE
  5
63
102
{ACAD_REACTORS
330
47
102
}
330
47
100
AcDbScale
 70
     0
300
3/4" = 1'-0"
140
0.75
141
12.0
290
     0
  0
SCALE
  5
64
102
{ACAD_REACTORS
330
47
102
}
330
47
100
AcDbScale
 70
     0
300
1" = 1'-0"
140
1.0
141
12.0
290
     0
  0
SCALE
  5
65
102
{ACAD_REACTORS
330
47
102
}
330
47
100
AcDbScale
 70
     0
300
1-1/2" = 1'-0"
140
1.5
141
12.0
290
     0
  0
SCALE
  5
66
102
{ACAD_REACTORS
330
47
102
}
330
47
100
AcDbScale
 70
     0
300
3" = 1'-0"
140
3.0
141
12.0
290
     0
  0
SCALE
  5
67
102
{ACAD_REACTORS
330
47
102
}
330
47
100
AcDbScale
 70
     0
300
6" = 1'-0"
140
6.0
141
12.0
290
     0
  0
SCALE
  5
68
102
{ACAD_REACTORS
330
47
102
}
330
47
100
AcDbScale
 70
     0
300
1'-0" = 1'-0"
140
12.0
141
12.0
290
     0
  0
ENDSEC
  0
EOF
